  0
SECTION
  2
HEADER
  9
$ACADVER
  1
AC1015
  9
$ACADMAINTVER
 70
     6
  9
$DWGCODEPAGE
  3
ANSI_1254
  9
$INSBASE
 10
0.0
 20
0.0
 30
0.0
  9
$EXTMIN
 10
0.0
 20
0.0
 30
0.0
  9
$EXTMAX
 10
279.4
 20
215.9
 30
0.0
  9
$LIMMIN
 10
0.0
 20
0.0
  9
$LIMMAX
 10
279.4
 20
215.9
  9
$ORTHOMODE
 70
     0
  9
$REGENMODE
 70
     1
  9
$FILLMODE
 70
     1
  9
$QTEXTMODE
 70
     0
  9
$MIRRTEXT
 70
     1
  9
$LTSCALE
 40
1.0
  9
$ATTMODE
 70
     1
  9
$TEXTSIZE
 40
3.5
  9
$TRACEWID
 40
1.0
  9
$TEXTSTYLE
  7
Standard
  9
$CLAYER
  8
0
  9
$CELTYPE
  6
ByLayer
  9
$CECOLOR
 62
   256
  9
$CELTSCALE
 40
1.0
  9
$DISPSILH
 70
     0
  9
$DIMSCALE
 40
1.0
  9
$DIMASZ
 40
3.5
  9
$DIMEXO
 40
1.0
  9
$DIMDLI
 40
3.75
  9
$DIMRND
 40
0.0
  9
$DIMDLE
 40
0.0
  9
$DIMEXE
 40
1.0
  9
$DIMTP
 40
0.0
  9
$DIMTM
 40
0.0
  9
$DIMTXT
 40
3.5
  9
$DIMCEN
 40
2.5
  9
$DIMTSZ
 40
0.0
  9
$DIMTOL
 70
     0
  9
$DIMLIM
 70
     0
  9
$DIMTIH
 70
     1
  9
$DIMTOH
 70
     1
  9
$DIMSE1
 70
     0
  9
$DIMSE2
 70
     0
  9
$DIMTAD
 70
     1
  9
$DIMZIN
 70
     0
  9
$DIMBLK
  1

  9
$DIMASO
 70
     1
  9
$DIMSHO
 70
     1
  9
$DIMPOST
  1

  9
$DIMAPOST
  1

  9
$DIMALT
 70
     0
  9
$DIMALTD
 70
     3
  9
$DIMALTF
 40
0.0393700787
  9
$DIMLFAC
 40
1.0
  9
$DIMTOFL
 70
     1
  9
$DIMTVP
 40
0.0
  9
$DIMTIX
 70
     0
  9
$DIMSOXD
 70
     0
  9
$DIMSAH
 70
     0
  9
$DIMBLK1
  1

  9
$DIMBLK2
  1

  9
$DIMSTYLE
  2
ISO-25
  9
$DIMCLRD
 70
     0
  9
$DIMCLRE
 70
     0
  9
$DIMCLRT
 70
     0
  9
$DIMTFAC
 40
1.0
  9
$DIMGAP
 40
1.524
  9
$DIMJUST
 70
     0
  9
$DIMSD1
 70
     0
  9
$DIMSD2
 70
     0
  9
$DIMTOLJ
 70
     0
  9
$DIMTZIN
 70
     0
  9
$DIMALTZ
 70
     0
  9
$DIMALTTZ
 70
     0
  9
$DIMUPT
 70
     0
  9
$DIMDEC
 70
     2
  9
$DIMTDEC
 70
     2
  9
$DIMALTU
 70
     2
  9
$DIMALTTD
 70
     3
  9
$DIMTXSTY
  7
Standard
  9
$DIMAUNIT
 70
     0
  9
$DIMADEC
 70
     2
  9
$DIMALTRND
 40
0.0
  9
$DIMAZIN
 70
     0
  9
$DIMDSEP
 70
    44
  9
$DIMATFIT
 70
     3
  9
$DIMFRAC
 70
     0
  9
$DIMLDRBLK
  1

  9
$DIMLUNIT
 70
     2
  9
$DIMLWD
 70
    -2
  9
$DIMLWE
 70
    -2
  9
$DIMTMOVE
 70
     0
  9
$LUNITS
 70
     2
  9
$LUPREC
 70
     2
  9
$SKETCHINC
 40
1.0
  9
$FILLETRAD
 40
10.0
  9
$AUNITS
 70
     0
  9
$AUPREC
 70
     2
  9
$MENU
  1
.
  9
$ELEVATION
 40
0.0
  9
$PELEVATION
 40
0.0
  9
$THICKNESS
 40
0.0
  9
$LIMCHECK
 70
     0
  9
$CHAMFERA
 40
0.0
  9
$CHAMFERB
 40
0.0
  9
$CHAMFERC
 40
0.0
  9
$CHAMFERD
 40
0.0
  9
$SKPOLY
 70
     0
  9
$TDCREATE
 40
2459935.699349039
  9
$TDUCREATE
 40
2459935.574349039
  9
$TDUPDATE
 40
2459935.699349225
  9
$TDUUPDATE
 40
2459935.574349225
  9
$TDINDWG
 40
0.0000000116
  9
$TDUSRTIMER
 40
0.0000000116
  9
$USRTIMER
 70
     1
  9
$ANGBASE
 50
0.0
  9
$ANGDIR
 70
     0
  9
$PDMODE
 70
     0
  9
$PDSIZE
 40
-1.0
  9
$PLINEWID
 40
0.0
  9
$SPLFRAME
 70
     0
  9
$SPLINETYPE
 70
     6
  9
$SPLINESEGS
 70
     8
  9
$HANDSEED
  5
ED
  9
$SURFTAB1
 70
     6
  9
$SURFTAB2
 70
     6
  9
$SURFTYPE
 70
     6
  9
$SURFU
 70
     6
  9
$SURFV
 70
     6
  9
$UCSBASE
  2

  9
$UCSNAME
  2

  9
$UCSORG
 10
0.0
 20
0.0
 30
0.0
  9
$UCSXDIR
 10
1.0
 20
0.0
 30
0.0
  9
$UCSYDIR
 10
0.0
 20
1.0
 30
0.0
  9
$UCSORTHOREF
  2

  9
$UCSORTHOVIEW
 70
     0
  9
$UCSORGTOP
 10
0.0
 20
0.0
 30
0.0
  9
$UCSORGBOTTOM
 10
0.0
 20
0.0
 30
0.0
  9
$UCSORGLEFT
 10
0.0
 20
0.0
 30
0.0
  9
$UCSORGRIGHT
 10
0.0
 20
0.0
 30
0.0
  9
$UCSORGFRONT
 10
0.0
 20
0.0
 30
0.0
  9
$UCSORGBACK
 10
0.0
 20
0.0
 30
0.0
  9
$PUCSBASE
  2

  9
$PUCSNAME
  2

  9
$PUCSORG
 10
0.0
 20
0.0
 30
0.0
  9
$PUCSXDIR
 10
1.0
 20
0.0
 30
0.0
  9
$PUCSYDIR
 10
0.0
 20
1.0
 30
0.0
  9
$PUCSORTHOREF
  2

  9
$PUCSORTHOVIEW
 70
     0
  9
$PUCSORGTOP
 10
0.0
 20
0.0
 30
0.0
  9
$PUCSORGBOTTOM
 10
0.0
 20
0.0
 30
0.0
  9
$PUCSORGLEFT
 10
0.0
 20
0.0
 30
0.0
  9
$PUCSORGRIGHT
 10
0.0
 20
0.0
 30
0.0
  9
$PUCSORGFRONT
 10
0.0
 20
0.0
 30
0.0
  9
$PUCSORGBACK
 10
0.0
 20
0.0
 30
0.0
  9
$USERI1
 70
     0
  9
$USERI2
 70
     0
  9
$USERI3
 70
     0
  9
$USERI4
 70
     0
  9
$USERI5
 70
     0
  9
$USERR1
 40
0.0
  9
$USERR2
 40
0.0
  9
$USERR3
 40
0.0
  9
$USERR4
 40
0.0
  9
$USERR5
 40
0.0
  9
$WORLDVIEW
 70
     1
  9
$SHADEDGE
 70
     3
  9
$SHADEDIF
 70
    70
  9
$TILEMODE
 70
     1
  9
$MAXACTVP
 70
    64
  9
$PINSBASE
 10
0.0
 20
0.0
 30
0.0
  9
$PLIMCHECK
 70
     0
  9
$PEXTMIN
 10
1.0000000000E+20
 20
1.0000000000E+20
 30
1.0000000000E+20
  9
$PEXTMAX
 10
-1.0000000000E+20
 20
-1.0000000000E+20
 30
-1.0000000000E+20
  9
$PLIMMIN
 10
0.0
 20
0.0
  9
$PLIMMAX
 10
420.0
 20
297.0
  9
$UNITMODE
 70
     0
  9
$VISRETAIN
 70
     1
  9
$PLINEGEN
 70
     0
  9
$PSLTSCALE
 70
     1
  9
$TREEDEPTH
 70
  3020
  9
$CMLSTYLE
  2
Standard
  9
$CMLJUST
 70
     0
  9
$CMLSCALE
 40
20.0
  9
$PROXYGRAPHICS
 70
     1
  9
$MEASUREMENT
 70
     1
  9
$CELWEIGHT
370
    -1
  9
$ENDCAPS
280
     0
  9
$JOINSTYLE
280
     0
  9
$LWDISPLAY
290
     1
  9
$INSUNITS
 70
     4
  9
$HYPERLINKBASE
  1

  9
$STYLESHEET
  1

  9
$XEDIT
290
     1
  9
$CEPSNTYPE
380
     0
  9
$PSTYLEMODE
290
     1
  9
$FINGERPRINTGUID
  2
{1124173d-43f2-4f75-9a52-a42363c27751}
  9
$VERSIONGUID
  2
{FAEB1C32-E019-11D5-929B-00C0DF256EC4}
  9
$EXTNAMES
290
     1
  9
$PSVPSCALE
 40
0.0
  9
$OLESTARTUP
290
     0
  0
ENDSEC
  0
SECTION
  2
CLASSES
  0
CLASS
  1
ACDBDICTIONARYWDFLT
  2
AcDbDictionaryWithDefault
  3
ObjectDBX Classes
 90
        0
280
     0
281
     0
  0
CLASS
  1
VISUALSTYLE
  2
AcDbVisualStyle
  3
ObjectDBX Classes
 90
     4095
280
     0
281
     0
  0
CLASS
  1
MATERIAL
  2
AcDbMaterial
  3
ObjectDBX Classes
 90
     1153
280
     0
281
     0
  0
CLASS
  1
SCALE
  2
AcDbScale
  3
ObjectDBX Classes
 90
     1153
280
     0
281
     0
  0
CLASS
  1
TABLESTYLE
  2
AcDbTableStyle
  3
ObjectDBX Classes
 90
     4095
280
     0
281
     0
  0
CLASS
  1
MLEADERSTYLE
  2
AcDbMLeaderStyle
  3
ACDB_MLEADERSTYLE_CLASS
 90
     4095
280
     0
281
     0
  0
CLASS
  1
SUN
  2
AcDbSun
  3
SCENEOE
 90
     1153
280
     0
281
     0
  0
CLASS
  1
ACDBPLACEHOLDER
  2
AcDbPlaceHolder
  3
ObjectDBX Classes
 90
        0
280
     0
281
     0
  0
CLASS
  1
LAYOUT
  2
AcDbLayout
  3
ObjectDBX Classes
 90
        0
280
     0
281
     0
  0
ENDSEC
  0
SECTION
  2
TABLES
  0
TABLE
  2
VPORT
  5
8
330
0
100
AcDbSymbolTable
 70
     1
  0
VPORT
  5
29
330
8
100
AcDbSymbolTableRecord
100
AcDbViewportTableRecord
  2
*Active
 70
     0
 10
0.0
 20
0.0
 11
1.0
 21
1.0
 12
139.7
 22
107.95
 13
0.0
 23
0.0
 14
10.0
 24
10.0
 15
10.0
 25
10.0
 16
0.0
 26
0.0
 36
1.0
 17
0.0
 27
0.0
 37
0.0
 40
215.9
 41
1.2941176471
 42
50.0
 43
0.0
 44
0.0
 50
0.0
 51
0.0
 71
     0
 72
  2000
 73
     1
 74
     3
 75
     0
 76
     0
 77
     0
 78
     0
281
     0
 65
     1
110
0.0
120
0.0
130
0.0
111
1.0
121
0.0
131
0.0
112
0.0
122
1.0
132
0.0
 79
     0
146
0.0
  0
ENDTAB
  0
TABLE
  2
LTYPE
  5
5
330
0
100
AcDbSymbolTable
 70
     6
  0
LTYPE
  5
14
330
5
100
AcDbSymbolTableRecord
100
AcDbLinetypeTableRecord
  2
ByBlock
 70
     0
  3

 72
    65
 73
     0
 40
0.0
  0
LTYPE
  5
15
330
5
100
AcDbSymbolTableRecord
100
AcDbLinetypeTableRecord
  2
ByLayer
 70
     0
  3

 72
    65
 73
     0
 40
0.0
  0
LTYPE
  5
16
330
5
100
AcDbSymbolTableRecord
100
AcDbLinetypeTableRecord
  2
Continuous
 70
     0
  3
Solid line
 72
    65
 73
     0
 40
0.0
  0
LTYPE
  5
6E
330
5
100
AcDbSymbolTableRecord
100
AcDbLinetypeTableRecord
  2
HIDDEN
 70
     0
  3
Hidden __ __ __ __ __ __ __ __ __ __ __ __ __ __
 72
    65
 73
     2
 40
1.905
 49
1.27
 74
     0
 49
-0.635
 74
     0
  0
LTYPE
  5
6F
330
5
100
AcDbSymbolTableRecord
100
AcDbLinetypeTableRecord
  2
PHANTOM
 70
     0
  3
Phantom ______  __  __  ______  __  __  ______
 72
    65
 73
     6
 40
12.7
 49
6.35
 74
     0
 49
-1.27
 74
     0
 49
1.27
 74
     0
 49
-1.27
 74
     0
 49
1.27
 74
     0
 49
-1.27
 74
     0
  0
LTYPE
  5
70
330
5
100
AcDbSymbolTableRecord
100
AcDbLinetypeTableRecord
  2
CENTER
 70
     0
  3
Center ____ _ ____ _ ____ _ ____ _ ____ _ ____
 72
    65
 73
     4
 40
10.16
 49
6.35
 74
     0
 49
-1.27
 74
     0
 49
1.27
 74
     0
 49
-1.27
 74
     0
  0
LTYPE
  5
71
330
5
100
AcDbSymbolTableRecord
100
AcDbLinetypeTableRecord
  2
CENTERX2
 70
     0
  3
Center (2x) ________  __  ________  __  _____
 72
    65
 73
     4
 40
20.32
 49
12.7
 74
     0
 49
-2.54
 74
     0
 49
2.54
 74
     0
 49
-2.54
 74
     0
  0
LTYPE
  5
72
330
5
100
AcDbSymbolTableRecord
100
AcDbLinetypeTableRecord
  2
DOT2
 70
     0
  3
Dot (.5x) ........................................
 72
    65
 73
     2
 40
0.635
 49
0.0
 74
     0
 49
-0.635
 74
     0
  0
ENDTAB
  0
TABLE
  2
LAYER
  5
2
330
0
100
AcDbSymbolTable
 70
    17
  0
LAYER
  5
10
330
2
100
AcDbSymbolTableRecord
100
AcDbLayerTableRecord
  2
0
 70
     0
 62
     7
  6
Continuous
370
    -3
390
F
  0
LAYER
  5
73
330
2
100
AcDbSymbolTableRecord
100
AcDbLayerTableRecord
  2
FORMAT
 70
     0
 62
     7
  6
Continuous
370
    -3
390
F
  0
LAYER
  5
74
330
2
100
AcDbSymbolTableRecord
100
AcDbLayerTableRecord
  2
YARDIMCI_GEOMETRI
 70
     0
 62
    -6
  6
Continuous
290
     0
370
    -3
390
F
  0
LAYER
  5
75
330
2
100
AcDbSymbolTableRecord
100
AcDbLayerTableRecord
  2
SAYFA_CERCEVESI
 70
     0
 62
     7
  6
Continuous
370
    25
390
F
  0
LAYER
  5
76
330
2
100
AcDbSymbolTableRecord
100
AcDbLayerTableRecord
  2
ANTET
 70
     0
 62
     7
  6
Continuous
370
    -3
390
F
  0
LAYER
  5
77
330
2
100
AcDbSymbolTableRecord
100
AcDbLayerTableRecord
  2
OLCU
 70
     0
 62
   150
  6
Continuous
370
    -3
390
F
  0
LAYER
  5
78
330
2
100
AcDbSymbolTableRecord
100
AcDbLayerTableRecord
  2
METIN
 70
     0
 62
    96
  6
Continuous
370
    -3
390
F
  0
LAYER
  5
79
330
2
100
AcDbSymbolTableRecord
100
AcDbLayerTableRecord
  2
BALON
 70
     0
 62
     5
  6
Continuous
370
    -3
390
F
  0
LAYER
  5
7A
330
2
100
AcDbSymbolTableRecord
100
AcDbLayerTableRecord
  2
VURGU
 70
     0
 62
     7
  6
Continuous
370
    -3
390
F
  0
LAYER
  5
7B
330
2
100
AcDbSymbolTableRecord
100
AcDbLayerTableRecord
  2
SILIK
 70
     0
 62
     7
  6
Continuous
370
    -3
390
F
  0
LAYER
  5
7C
330
2
100
AcDbSymbolTableRecord
100
AcDbLayerTableRecord
  2
MODEL
 70
     0
 62
     7
  6
Continuous
370
    -3
390
F
  0
LAYER
  5
7D
330
2
100
AcDbSymbolTableRecord
100
AcDbLayerTableRecord
  2
DETAYLANDıRMA
 70
     0
 62
   190
  6
Continuous
370
    -3
390
F
  0
LAYER
  5
7E
330
2
100
AcDbSymbolTableRecord
100
AcDbLayerTableRecord
  2
TOLERANS
 70
     0
 62
   230
  6
Continuous
370
    -3
390
F
  0
LAYER
  5
7F
330
2
100
AcDbSymbolTableRecord
100
AcDbLayerTableRecord
  2
MERKEZ_CIZGILERI
 70
     0
 62
    30
  6
Continuous
370
    -3
390
F
  0
LAYER
  5
80
330
2
100
AcDbSymbolTableRecord
100
AcDbLayerTableRecord
  2
KESIT-DETAY_CIZGILERI
 70
     0
 62
     7
  6
Continuous
370
    -3
390
F
  0
LAYER
  5
81
330
2
100
AcDbSymbolTableRecord
100
AcDbLayerTableRecord
  2
\U+041E\U+0421\U+0415\U+0412\U+042B\U+0415
 70
     0
 62
     7
  6
Continuous
370
    -3
390
F
  0
LAYER
  5
82
330
2
100
AcDbSymbolTableRecord
100
AcDbLayerTableRecord
  2
\U+0412\U+041E\U+0414\U+042F\U+041D\U+042B\U+0415_\U+0417\U+041D\U+0410\U+041A\U+0418
 70
     0
 62
    11
  6
Continuous
370
    -3
390
F
  0
ENDTAB
  0
TABLE
  2
STYLE
  5
3
330
0
100
AcDbSymbolTable
 70
     1
  0
STYLE
  5
11
330
3
100
AcDbSymbolTableRecord
100
AcDbTextStyleTableRecord
  2
Standard
 70
     0
 40
0.0
 41
1.0
 50
0.0
 71
     0
 42
3.5
  3
txt
  4

  0
ENDTAB
  0
TABLE
  2
VIEW
  5
6
330
0
100
AcDbSymbolTable
 70
     0
  0
ENDTAB
  0
TABLE
  2
UCS
  5
7
330
0
100
AcDbSymbolTable
 70
     0
  0
ENDTAB
  0
TABLE
  2
APPID
  5
9
330
0
100
AcDbSymbolTable
 70
     1
  0
APPID
  5
12
330
9
100
AcDbSymbolTableRecord
100
AcDbRegAppTableRecord
  2
ACAD
 70
     0
  0
ENDTAB
  0
TABLE
  2
DIMSTYLE
  5
A
330
0
100
AcDbSymbolTable
 70
     1
100
AcDbDimStyleTable
  0
DIMSTYLE
105
27
330
A
100
AcDbSymbolTableRecord
100
AcDbDimStyleTableRecord
  2
ISO-25
 70
     0
 41
2.5
 42
0.625
 43
3.75
 44
1.25
 73
     0
 74
     0
 77
     1
 78
     8
140
2.5
141
2.5
143
0.0393700787
147
0.625
171
     3
172
     1
178
     0
271
     2
272
     2
274
     3
278
    44
283
     0
284
     8
340
11
  0
ENDTAB
  0
TABLE
  2
BLOCK_RECORD
  5
1
330
0
100
AcDbSymbolTable
 70
     5
  0
BLOCK_RECORD
  5
1F
330
1
100
AcDbSymbolTableRecord
100
AcDbBlockTableRecord
  2
*Model_Space
340
22
  0
BLOCK_RECORD
  5
1B
330
1
100
AcDbSymbolTableRecord
100
AcDbBlockTableRecord
  2
*Paper_Space
340
1E
  0
BLOCK_RECORD
  5
23
330
1
100
AcDbSymbolTableRecord
100
AcDbBlockTableRecord
  2
*Paper_Space0
340
26
  0
BLOCK_RECORD
  5
97
330
1
100
AcDbSymbolTableRecord
100
AcDbBlockTableRecord
  2
SW_CENTERMARKSYMBOL_0
340
0
102
{BLKREFS
331
A2
102
}
  0
BLOCK_RECORD
  5
AC
330
1
100
AcDbSymbolTableRecord
100
AcDbBlockTableRecord
  2
SW_CENTERMARKSYMBOL_1
340
0
102
{BLKREFS
331
B7
102
}
  0
BLOCK_RECORD
  5
BF
330
1
100
AcDbSymbolTableRecord
100
AcDbBlockTableRecord
  2
SW_CENTERMARKSYMBOL_2
340
0
102
{BLKREFS
331
CA
102
}
  0
BLOCK_RECORD
  5
D2
330
1
100
AcDbSymbolTableRecord
100
AcDbBlockTableRecord
  2
SW_CENTERMARKSYMBOL_3
340
0
102
{BLKREFS
331
DD
102
}
  0
ENDTAB
  0
ENDSEC
  0
SECTION
  2
BLOCKS
  0
BLOCK
  5
20
330
1F
100
AcDbEntity
  8
0
100
AcDbBlockBegin
  2
*Model_Space
 70
     0
 10
0.0
 20
0.0
 30
0.0
  3
*Model_Space
  1

  0
ENDBLK
  5
21
330
1F
100
AcDbEntity
  8
0
100
AcDbBlockEnd
  0
BLOCK
  5
1C
330
1B
100
AcDbEntity
 67
     1
  8
0
100
AcDbBlockBegin
  2
*Paper_Space
 70
     0
 10
0.0
 20
0.0
 30
0.0
  3
*Paper_Space
  1

  0
ENDBLK
  5
1D
330
1B
100
AcDbEntity
 67
     1
  8
0
100
AcDbBlockEnd
  0
BLOCK
  5
24
330
23
100
AcDbEntity
  8
0
100
AcDbBlockBegin
  2
*Paper_Space0
 70
     0
 10
0.0
 20
0.0
 30
0.0
  3
*Paper_Space0
  1

  0
ENDBLK
  5
25
330
23
100
AcDbEntity
  8
0
100
AcDbBlockEnd
  0
BLOCK
  5
98
330
97
100
AcDbEntity
  8
0
100
AcDbBlockBegin
  2
SW_CENTERMARKSYMBOL_0
 70
     0
 10
0.0
 20
0.0
 30
0.0
  3
SW_CENTERMARKSYMBOL_0
  1

  0
LINE
  5
9A
330
97
100
AcDbEntity
  8
FORMAT
 62
     0
100
AcDbLine
 10
0.0
 20
0.0
 30
0.0
 11
0.0
 21
2.5
 31
0.0
  0
LINE
  5
9B
330
97
100
AcDbEntity
  8
FORMAT
 62
     0
100
AcDbLine
 10
0.0
 20
0.0
 30
0.0
 11
-2.5
 21
0.0
 31
0.0
  0
LINE
  5
9C
330
97
100
AcDbEntity
  8
FORMAT
 62
     0
100
AcDbLine
 10
0.0
 20
0.0
 30
0.0
 11
0.0
 21
-2.5
 31
0.0
  0
LINE
  5
9D
330
97
100
AcDbEntity
  8
FORMAT
 62
     0
100
AcDbLine
 10
0.0
 20
0.0
 30
0.0
 11
2.5
 21
0.0
 31
0.0
  0
LINE
  5
9E
330
97
100
AcDbEntity
  8
FORMAT
 62
     0
100
AcDbLine
 10
0.0
 20
5.0
 30
0.0
 11
0.0
 21
57.5
 31
0.0
  0
LINE
  5
9F
330
97
100
AcDbEntity
  8
FORMAT
 62
     0
100
AcDbLine
 10
-5.0
 20
0.0
 30
0.0
 11
-57.5
 21
0.0
 31
0.0
  0
LINE
  5
A0
330
97
100
AcDbEntity
  8
FORMAT
 62
     0
100
AcDbLine
 10
0.0
 20
-5.0
 30
0.0
 11
0.0
 21
-57.5
 31
0.0
  0
LINE
  5
A1
330
97
100
AcDbEntity
  8
FORMAT
 62
     0
100
AcDbLine
 10
5.0
 20
0.0
 30
0.0
 11
57.5
 21
0.0
 31
0.0
  0
ENDBLK
  5
99
330
97
100
AcDbEntity
  8
0
100
AcDbBlockEnd
  0
BLOCK
  5
AD
330
AC
100
AcDbEntity
  8
0
100
AcDbBlockBegin
  2
SW_CENTERMARKSYMBOL_1
 70
     0
 10
0.0
 20
0.0
 30
0.0
  3
SW_CENTERMARKSYMBOL_1
  1

  0
LINE
  5
AF
330
AC
100
AcDbEntity
  8
FORMAT
 62
     0
100
AcDbLine
 10
0.0
 20
0.0
 30
0.0
 11
0.0
 21
2.5
 31
0.0
  0
LINE
  5
B0
330
AC
100
AcDbEntity
  8
FORMAT
 62
     0
100
AcDbLine
 10
0.0
 20
0.0
 30
0.0
 11
-2.5
 21
0.0
 31
0.0
  0
LINE
  5
B1
330
AC
100
AcDbEntity
  8
FORMAT
 62
     0
100
AcDbLine
 10
0.0
 20
0.0
 30
0.0
 11
0.0
 21
-2.5
 31
0.0
  0
LINE
  5
B2
330
AC
100
AcDbEntity
  8
FORMAT
 62
     0
100
AcDbLine
 10
0.0
 20
0.0
 30
0.0
 11
2.5
 21
0.0
 31
0.0
  0
LINE
  5
B3
330
AC
100
AcDbEntity
  8
FORMAT
 62
     0
100
AcDbLine
 10
0.0
 20
5.0
 30
0.0
 11
0.0
 21
57.5
 31
0.0
  0
LINE
  5
B4
330
AC
100
AcDbEntity
  8
FORMAT
 62
     0
100
AcDbLine
 10
-5.0
 20
0.0
 30
0.0
 11
-57.5
 21
0.0
 31
0.0
  0
LINE
  5
B5
330
AC
100
AcDbEntity
  8
FORMAT
 62
     0
100
AcDbLine
 10
0.0
 20
-5.0
 30
0.0
 11
0.0
 21
-57.5
 31
0.0
  0
LINE
  5
B6
330
AC
100
AcDbEntity
  8
FORMAT
 62
     0
100
AcDbLine
 10
5.0
 20
0.0
 30
0.0
 11
57.5
 21
0.0
 31
0.0
  0
ENDBLK
  5
AE
330
AC
100
AcDbEntity
  8
0
100
AcDbBlockEnd
  0
BLOCK
  5
C0
330
BF
100
AcDbEntity
  8
0
100
AcDbBlockBegin
  2
SW_CENTERMARKSYMBOL_2
 70
     0
 10
0.0
 20
0.0
 30
0.0
  3
SW_CENTERMARKSYMBOL_2
  1

  0
LINE
  5
C2
330
BF
100
AcDbEntity
  8
FORMAT
 62
     0
100
AcDbLine
 10
0.0
 20
0.0
 30
0.0
 11
0.0
 21
2.5
 31
0.0
  0
LINE
  5
C3
330
BF
100
AcDbEntity
  8
FORMAT
 62
     0
100
AcDbLine
 10
0.0
 20
0.0
 30
0.0
 11
-2.5
 21
0.0
 31
0.0
  0
LINE
  5
C4
330
BF
100
AcDbEntity
  8
FORMAT
 62
     0
100
AcDbLine
 10
0.0
 20
0.0
 30
0.0
 11
0.0
 21
-2.5
 31
0.0
  0
LINE
  5
C5
330
BF
100
AcDbEntity
  8
FORMAT
 62
     0
100
AcDbLine
 10
0.0
 20
0.0
 30
0.0
 11
2.5
 21
0.0
 31
0.0
  0
LINE
  5
C6
330
BF
100
AcDbEntity
  8
FORMAT
 62
     0
100
AcDbLine
 10
0.0
 20
5.0
 30
0.0
 11
0.0
 21
57.5
 31
0.0
  0
LINE
  5
C7
330
BF
100
AcDbEntity
  8
FORMAT
 62
     0
100
AcDbLine
 10
-5.0
 20
0.0
 30
0.0
 11
-57.5
 21
0.0
 31
0.0
  0
LINE
  5
C8
330
BF
100
AcDbEntity
  8
FORMAT
 62
     0
100
AcDbLine
 10
0.0
 20
-5.0
 30
0.0
 11
0.0
 21
-57.5
 31
0.0
  0
LINE
  5
C9
330
BF
100
AcDbEntity
  8
FORMAT
 62
     0
100
AcDbLine
 10
5.0
 20
0.0
 30
0.0
 11
57.5
 21
0.0
 31
0.0
  0
ENDBLK
  5
C1
330
BF
100
AcDbEntity
  8
0
100
AcDbBlockEnd
  0
BLOCK
  5
D3
330
D2
100
AcDbEntity
  8
0
100
AcDbBlockBegin
  2
SW_CENTERMARKSYMBOL_3
 70
     0
 10
0.0
 20
0.0
 30
0.0
  3
SW_CENTERMARKSYMBOL_3
  1

  0
LINE
  5
D5
330
D2
100
AcDbEntity
  8
FORMAT
 62
     0
100
AcDbLine
 10
0.0
 20
0.0
 30
0.0
 11
0.0
 21
2.5
 31
0.0
  0
LINE
  5
D6
330
D2
100
AcDbEntity
  8
FORMAT
 62
     0
100
AcDbLine
 10
0.0
 20
0.0
 30
0.0
 11
-2.5
 21
0.0
 31
0.0
  0
LINE
  5
D7
330
D2
100
AcDbEntity
  8
FORMAT
 62
     0
100
AcDbLine
 10
0.0
 20
0.0
 30
0.0
 11
0.0
 21
-2.5
 31
0.0
  0
LINE
  5
D8
330
D2
100
AcDbEntity
  8
FORMAT
 62
     0
100
AcDbLine
 10
0.0
 20
0.0
 30
0.0
 11
2.5
 21
0.0
 31
0.0
  0
LINE
  5
D9
330
D2
100
AcDbEntity
  8
FORMAT
 62
     0
100
AcDbLine
 10
0.0
 20
5.0
 30
0.0
 11
0.0
 21
57.5
 31
0.0
  0
LINE
  5
DA
330
D2
100
AcDbEntity
  8
FORMAT
 62
     0
100
AcDbLine
 10
-5.0
 20
0.0
 30
0.0
 11
-57.5
 21
0.0
 31
0.0
  0
LINE
  5
DB
330
D2
100
AcDbEntity
  8
FORMAT
 62
     0
100
AcDbLine
 10
0.0
 20
-5.0
 30
0.0
 11
0.0
 21
-57.5
 31
0.0
  0
LINE
  5
DC
330
D2
100
AcDbEntity
  8
FORMAT
 62
     0
100
AcDbLine
 10
5.0
 20
0.0
 30
0.0
 11
57.5
 21
0.0
 31
0.0
  0
ENDBLK
  5
D4
330
D2
100
AcDbEntity
  8
0
100
AcDbBlockEnd
  0
ENDSEC
  0
SECTION
  2
ENTITIES
  0
LINE
  5
83
330
1F
100
AcDbEntity
  8
0
  6
Continuous
 62
     7
370
    25
100
AcDbLine
 10
38.6566177086
 20
110.1610441446
 30
0.0
 11
38.6566177086
 21
4.1610441446
 31
0.0
  0
LINE
  5
84
330
1F
100
AcDbEntity
  8
0
  6
Continuous
 62
     7
370
    25
100
AcDbLine
 10
148.6566177086
 20
4.1610441446
 30
0.0
 11
148.6566177086
 21
110.1610441446
 31
0.0
  0
ARC
  5
85
330
1F
100
AcDbEntity
  8
0
  6
Continuous
 62
     7
370
    25
100
AcDbCircle
 10
148.6566177086
 20
110.1610441446
 30
0.0
 40
110.0
100
AcDbArc
 50
90.0
 51
180.0
  0
LINE
  5
86
330
1F
100
AcDbEntity
  8
0
  6
Continuous
 62
     7
370
    25
100
AcDbLine
 10
254.6566177086
 20
220.1610441446
 30
0.0
 11
148.6566177086
 21
220.1610441446
 31
0.0
  0
LINE
  5
87
330
1F
100
AcDbEntity
  8
0
  6
Continuous
 62
     7
370
    25
100
AcDbLine
 10
148.6566177086
 20
110.1610441446
 30
0.0
 11
254.6566177086
 21
110.1610441446
 31
0.0
  0
LINE
  5
88
330
1F
100
AcDbEntity
  8
0
  6
Continuous
 62
     7
370
    25
100
AcDbLine
 10
93.6566177086
 20
4.1610441446
 30
0.0
 11
148.6566177086
 21
4.1610441446
 31
0.0
  0
LINE
  5
89
330
1F
100
AcDbEntity
  8
0
  6
Continuous
 62
     7
370
    25
100
AcDbLine
 10
38.6566177086
 20
4.1610441446
 30
0.0
 11
93.6566177086
 21
4.1610441446
 31
0.0
  0
LINE
  5
8A
330
1F
100
AcDbEntity
  8
0
  6
Continuous
 62
     7
370
    25
100
AcDbLine
 10
254.6566177086
 20
165.1610441446
 30
0.0
 11
254.6566177086
 21
110.1610441446
 31
0.0
  0
LINE
  5
8B
330
1F
100
AcDbEntity
  8
0
  6
Continuous
 62
     7
370
    25
100
AcDbLine
 10
254.6566177086
 20
220.1610441446
 30
0.0
 11
254.6566177086
 21
165.1610441446
 31
0.0
  0
LINE
  5
8C
330
1F
100
AcDbEntity
  8
0
  6
Continuous
 62
     1
370
    25
100
AcDbLine
 10
38.6566177086
 20
110.1610441446
 30
0.0
 11
148.6566177086
 21
110.1610441446
 31
0.0
  0
LINE
  5
8D
330
1F
100
AcDbEntity
  8
0
  6
Continuous
 62
     1
370
    25
100
AcDbLine
 10
148.6566177086
 20
220.1610441446
 30
0.0
 11
148.6566177086
 21
110.1610441446
 31
0.0
  0
LINE
  5
8E
330
1F
100
AcDbEntity
  8
0
  6
Continuous
 62
     7
370
    25
100
AcDbLine
 10
-186.213630536
 20
165.1610441446
 30
0.0
 11
-186.213630536
 21
110.1610441446
 31
0.0
  0
LINE
  5
8F
330
1F
100
AcDbEntity
  8
0
  6
Continuous
 62
     7
370
    25
100
AcDbLine
 10
-76.213630536
 20
110.1610441446
 30
0.0
 11
-76.213630536
 21
165.1610441446
 31
0.0
  0
LINE
  5
90
330
1F
100
AcDbEntity
  8
0
  6
Continuous
 62
     7
370
    25
100
AcDbLine
 10
-186.213630536
 20
110.1610441446
 30
0.0
 11
-186.213630536
 21
4.1610441446
 31
0.0
  0
LINE
  5
91
330
1F
100
AcDbEntity
  8
0
  6
Continuous
 62
     7
370
    25
100
AcDbLine
 10
-76.213630536
 20
4.1610441446
 30
0.0
 11
-76.213630536
 21
110.1610441446
 31
0.0
  0
CIRCLE
  5
92
330
1F
100
AcDbEntity
  8
0
  6
Continuous
 62
     7
370
    25
100
AcDbCircle
 10
-131.213630536
 20
165.1610441446
 30
0.0
 40
55.0
  0
CIRCLE
  5
93
330
1F
100
AcDbEntity
  8
0
  6
Continuous
 62
     7
370
    25
100
AcDbCircle
 10
-131.213630536
 20
165.1610441446
 30
0.0
 40
45.0
  0
LINE
  5
94
330
1F
100
AcDbEntity
  8
0
  6
Continuous
 62
     7
370
    25
100
AcDbLine
 10
-186.213630536
 20
4.1610441446
 30
0.0
 11
-76.213630536
 21
4.1610441446
 31
0.0
  0
LINE
  5
95
330
1F
100
AcDbEntity
  8
0
  6
Continuous
 62
     1
370
    25
100
AcDbLine
 10
-131.213630536
 20
110.1610441446
 30
0.0
 11
-76.213630536
 21
110.1610441446
 31
0.0
  0
LINE
  5
96
330
1F
100
AcDbEntity
  8
0
  6
Continuous
 62
     1
370
    25
100
AcDbLine
 10
-186.213630536
 20
110.1610441446
 30
0.0
 11
-131.213630536
 21
110.1610441446
 31
0.0
  0
INSERT
  5
A2
330
1F
100
AcDbEntity
  8
FORMAT
 62
     7
100
AcDbBlockReference
  2
SW_CENTERMARKSYMBOL_0
 10
-131.213630536
 20
165.1610441446
 30
0.0
  0
LINE
  5
A3
330
1F
100
AcDbEntity
  8
0
  6
Continuous
 62
     7
370
    25
100
AcDbLine
 10
254.6566177086
 20
391.6382580707
 30
0.0
 11
148.6566177086
 21
391.6382580707
 31
0.0
  0
LINE
  5
A4
330
1F
100
AcDbEntity
  8
0
  6
Continuous
 62
     7
370
    25
100
AcDbLine
 10
148.6566177086
 20
281.6382580707
 30
0.0
 11
254.6566177086
 21
281.6382580707
 31
0.0
  0
LINE
  5
A5
330
1F
100
AcDbEntity
  8
0
  6
Continuous
 62
     7
370
    25
100
AcDbLine
 10
148.6566177086
 20
391.6382580707
 30
0.0
 11
93.6566177086
 21
391.6382580707
 31
0.0
  0
LINE
  5
A6
330
1F
100
AcDbEntity
  8
0
  6
Continuous
 62
     7
370
    25
100
AcDbLine
 10
93.6566177086
 20
281.6382580707
 30
0.0
 11
148.6566177086
 21
281.6382580707
 31
0.0
  0
CIRCLE
  5
A7
330
1F
100
AcDbEntity
  8
0
  6
Continuous
 62
     7
370
    25
100
AcDbCircle
 10
93.6566177086
 20
336.6382580707
 30
0.0
 40
44.99999999999994
  0
CIRCLE
  5
A8
330
1F
100
AcDbEntity
  8
0
  6
Continuous
 62
     7
370
    25
100
AcDbCircle
 10
93.6566177086
 20
336.6382580707
 30
0.0
 40
55.0
  0
LINE
  5
A9
330
1F
100
AcDbEntity
  8
0
  6
Continuous
 62
     7
370
    25
100
AcDbLine
 10
254.6566177086
 20
391.6382580707
 30
0.0
 11
254.6566177086
 21
281.6382580707
 31
0.0
  0
LINE
  5
AA
330
1F
100
AcDbEntity
  8
0
  6
Continuous
 62
     1
370
    25
100
AcDbLine
 10
148.6566177086
 20
336.6382580707
 30
0.0
 11
148.6566177086
 21
281.6382580707
 31
0.0
  0
LINE
  5
AB
330
1F
100
AcDbEntity
  8
0
  6
Continuous
 62
     1
370
    25
100
AcDbLine
 10
148.6566177086
 20
391.6382580707
 30
0.0
 11
148.6566177086
 21
336.6382580707
 31
0.0
  0
INSERT
  5
B7
330
1F
100
AcDbEntity
  8
FORMAT
 62
     7
100
AcDbBlockReference
  2
SW_CENTERMARKSYMBOL_1
 10
93.6566177086
 20
336.6382580707
 30
0.0
  0
LINE
  5
B8
330
1F
100
AcDbEntity
  8
0
  6
Continuous
 62
     7
370
    25
100
AcDbLine
 10
384.2605727334
 20
110.1610441446
 30
0.0
 11
384.2605727334
 21
4.1610441446
 31
0.0
  0
LINE
  5
B9
330
1F
100
AcDbEntity
  8
0
  6
Continuous
 62
     7
370
    25
100
AcDbLine
 10
494.2605727334
 20
4.1610441446
 30
0.0
 11
494.2605727334
 21
110.1610441446
 31
0.0
  0
LINE
  5
BA
330
1F
100
AcDbEntity
  8
0
  6
Continuous
 62
     7
370
    25
100
AcDbLine
 10
494.2605727334
 20
110.1610441446
 30
0.0
 11
494.2605727334
 21
165.1610441446
 31
0.0
  0
LINE
  5
BB
330
1F
100
AcDbEntity
  8
0
  6
Continuous
 62
     7
370
    25
100
AcDbLine
 10
384.2605727334
 20
165.1610441446
 30
0.0
 11
384.2605727334
 21
110.1610441446
 31
0.0
  0
LINE
  5
BC
330
1F
100
AcDbEntity
  8
0
  6
Continuous
 62
     7
370
    25
100
AcDbLine
 10
384.2605727334
 20
4.1610441446
 30
0.0
 11
494.2605727334
 21
4.1610441446
 31
0.0
  0
ARC
  5
BD
330
1F
100
AcDbEntity
  8
0
  6
Continuous
 62
     7
370
    25
100
AcDbCircle
 10
439.2605727334
 20
165.1610441446
 30
0.0
 40
55.0
100
AcDbArc
 50
0.0
 51
180.0
  0
LINE
  5
BE
330
1F
100
AcDbEntity
  8
0
  6
Continuous
 62
     1
370
    25
100
AcDbLine
 10
384.2605727334
 20
110.1610441446
 30
0.0
 11
494.2605727334
 21
110.1610441446
 31
0.0
  0
INSERT
  5
CA
330
1F
100
AcDbEntity
  8
FORMAT
 62
     7
100
AcDbBlockReference
  2
SW_CENTERMARKSYMBOL_2
 10
439.2605727334
 20
165.1610441446
 30
0.0
  0
LINE
  5
CB
330
1F
100
AcDbEntity
  8
0
  6
Continuous
 62
     7
370
    25
100
AcDbLine
 10
93.6566177086
 20
-232.0050022497
 30
0.0
 11
148.6566177086
 21
-232.0050022497
 31
0.0
  0
LINE
  5
CC
330
1F
100
AcDbEntity
  8
0
  6
Continuous
 62
     7
370
    25
100
AcDbLine
 10
148.6566177086
 20
-122.0050022497
 30
0.0
 11
93.6566177086
 21
-122.0050022497
 31
0.0
  0
LINE
  5
CD
330
1F
100
AcDbEntity
  8
0
  6
Continuous
 62
     7
370
    25
100
AcDbLine
 10
254.6566177086
 20
-122.0050022497
 30
0.0
 11
148.6566177086
 21
-122.0050022497
 31
0.0
  0
LINE
  5
CE
330
1F
100
AcDbEntity
  8
0
  6
Continuous
 62
     7
370
    25
100
AcDbLine
 10
148.6566177086
 20
-232.0050022497
 30
0.0
 11
254.6566177086
 21
-232.0050022497
 31
0.0
  0
ARC
  5
CF
330
1F
100
AcDbEntity
  8
0
  6
Continuous
 62
     7
370
    25
100
AcDbCircle
 10
93.6566177086
 20
-177.0050022497
 30
0.0
 40
55.0
100
AcDbArc
 50
90.0
 51
270.0
  0
LINE
  5
D0
330
1F
100
AcDbEntity
  8
0
  6
Continuous
 62
     7
370
    25
100
AcDbLine
 10
254.6566177086
 20
-122.0050022497
 30
0.0
 11
254.6566177086
 21
-232.0050022497
 31
0.0
  0
LINE
  5
D1
330
1F
100
AcDbEntity
  8
0
  6
Continuous
 62
     1
370
    25
100
AcDbLine
 10
148.6566177086
 20
-122.0050022497
 30
0.0
 11
148.6566177086
 21
-232.0050022497
 31
0.0
  0
INSERT
  5
DD
330
1F
100
AcDbEntity
  8
FORMAT
 62
     7
100
AcDbBlockReference
  2
SW_CENTERMARKSYMBOL_3
 10
93.6566177086
 20
-177.0050022497
 30
0.0
  0
LINE
  5
DE
330
1F
100
AcDbEntity
  8
0
  6
Continuous
 62
     7
370
    25
100
AcDbLine
 10
494.5797663285
 20
-65.4979667025
 30
0.0
 11
419.6264475228
 21
-108.7675966291
 31
0.0
  0
LINE
  5
DF
330
1F
100
AcDbEntity
  8
0
  6
Continuous
 62
     7
370
    25
100
AcDbLine
 10
474.6219778177
 20
-204.032971491
 30
0.0
 11
549.5752966235
 21
-160.7633415644
 31
0.0
  0
LINE
  5
E0
330
1F
100
AcDbEntity
  8
0
  6
Continuous
 62
     7
370
    25
100
AcDbLine
 10
353.233339705
 20
-223.7612517889
 30
0.0
 11
353.233339705
 21
-310.3145778487
 31
0.0
  0
LINE
  5
E1
330
1F
100
AcDbEntity
  8
0
  6
Continuous
 62
     7
370
    25
100
AcDbLine
 10
463.233339705
 20
-310.3145778487
 30
0.0
 11
463.233339705
 21
-223.7612517889
 31
0.0
  0
SPLINE
  5
E2
330
1F
100
AcDbEntity
  8
0
  6
Continuous
 62
     7
370
    25
100
AcDbSpline
210
0.0
220
0.0
230
1.0
 70
     8
 71
     3
 72
    37
 73
    33
 74
     0
 42
0.00000001
 43
0.00000001
 40
0.0
 40
0.0
 40
0.0
 40
0.0
 40
0.0217989438414643
 40
0.0553014527900686
 40
0.0888905541978333
 40
0.1226458379899624
 40
0.1565018994689895
 40
0.1903895533306355
 40
0.2242579595439935
 40
0.2580746989039389
 40
0.2918195460317419
 40
0.3254834512946365
 40
0.3590669047827552
 40
0.3925781231933879
 40
0.4260313202409198
 40
0.4594451887997096
 40
0.4928416269752706
 40
0.526244680870221
 40
0.559677226060557
 40
0.5931589516226764
 40
0.6267154825889812
 40
0.6603714414929132
 40
0.6941494292723984
 40
0.7280687750559593
 40
0.7621439814062869
 40
0.7963828273527277
 40
0.8307841619892672
 40
0.8653355425766468
 40
0.9000110469440458
 40
0.9347697936445393
 40
0.9695342772190865
 40
1.0
 40
1.0
 40
1.0
 40
1.0
 10
419.6264475227521
 20
-108.7675966290798
 30
0.0
 10
418.7869506314854
 20
-109.2613652016855
 30
0.0
 10
416.6572420530591
 20
-110.5140001736252
 30
0.0
 10
413.3056300034512
 20
-112.6765356778584
 30
0.0
 10
409.5826928757786
 20
-115.2816841797433
 30
0.0
 10
405.9348237101862
 20
-118.0553206221906
 30
0.0
 10
402.3658027862086
 20
-120.9880825412247
 30
0.0
 10
398.8857539420071
 20
-124.0703703238284
 30
0.0
 10
395.5027798709284
 20
-127.2913603225271
 30
0.0
 10
392.2232704790499
 20
-130.6412820495431
 30
0.0
 10
389.0521479743425
 20
-134.1111078519308
 30
0.0
 10
385.9933412905814
 20
-137.6926030488546
 30
0.0
 10
383.0500223847184
 20
-141.3783308376146
 30
0.0
 10
380.2248558095884
 20
-145.1616234015876
 30
0.0
 10
377.5202161166831
 20
-149.0365049382248
 30
0.0
 10
374.9383695803062
 20
-152.997600911571
 30
0.0
 10
372.4816194532764
 20
-157.040043594213
 30
0.0
 10
370.1524770871705
 20
-161.1592811074065
 30
0.0
 10
367.9538155936092
 20
-165.35082820254
 30
0.0
 10
365.8887692762137
 20
-169.6104259081165
 30
0.0
 10
363.9607497752793
 20
-173.934069914748
 30
0.0
 10
362.1734627741728
 20
-178.3180815436087
 30
0.0
 10
360.531094989468
 20
-182.7587187723117
 30
0.0
 10
359.038361340989
 20
-187.2520045807894
 30
0.0
 10
357.7005218513675
 20
-191.7935113834399
 30
0.0
 10
356.5234156848828
 20
-196.3780913645643
 30
0.0
 10
355.5132689082326
 20
-200.9995785276332
 30
0.0
 10
354.6771017497807
 20
-205.6504071522235
 30
0.0
 10
354.020532807149
 20
-210.3214815901673
 30
0.0
 10
353.5550040946239
 20
-215.0003107161889
 30
0.0
 10
353.2808818890238
 20
-219.4845294339268
 30
0.0
 10
353.2484752181915
 20
-222.3997159445214
 30
0.0
 10
353.233339704984
 20
-223.7612517888581
 30
0.0
  0
SPLINE
  5
E3
330
1F
100
AcDbEntity
  8
0
  6
Continuous
 62
     7
370
    25
100
AcDbSpline
210
0.0
220
0.0
230
1.0
 70
     8
 71
     3
 72
    32
 73
    28
 74
     0
 42
0.00000001
 43
0.00000001
 40
0.0
 40
0.0
 40
0.0
 40
0.0
 40
0.0235036439530015
 40
0.0658685614726017
 40
0.1069101182029427
 40
0.147021914510855
 40
0.1865531734331976
 40
0.2258012403075229
 40
0.2650058391101289
 40
0.3043455768560526
 40
0.3438976435388802
 40
0.3837357234836588
 40
0.4238826816678153
 40
0.4643158831794127
 40
0.504978326690064
 40
0.5457917119783083
 40
0.5866520487141809
 40
0.6274734425137101
 40
0.6682101045146449
 40
0.7088591723249609
 40
0.7494730701391592
 40
0.7901690363198229
 40
0.8311068054639245
 40
0.8724900223849448
 40
0.9146184211196434
 40
0.957853114665799
 40
1.0
 40
1.0
 40
1.0
 40
1.0
 10
463.2335744532645
 20
-223.791263702931
 30
0.0
 10
463.233409036354
 20
-223.7955642726843
 30
0.0
 10
463.2329454582824
 20
-223.807616546099
 30
0.0
 10
463.2447182104458
 20
-223.6249654771572
 30
0.0
 10
463.2878162913748
 20
-223.2619218602338
 30
0.0
 10
463.3747088663903
 20
-222.7221570850795
 30
0.0
 10
463.516598170171
 20
-222.0276921865189
 30
0.0
 10
463.723465995143
 20
-221.188273891736
 30
0.0
 10
464.0032942989275
 20
-220.2189494785298
 30
0.0
 10
464.3617996311466
 20
-219.136392034584
 30
0.0
 10
464.8020697752753
 20
-217.9599525402625
 30
0.0
 10
465.3242684304437
 20
-216.7111677032792
 30
0.0
 10
465.9256242265531
 20
-215.4130722812704
 30
0.0
 10
466.6000541191737
 20
-214.0902690724123
 30
0.0
 10
467.3380795729104
 20
-212.7683197795797
 30
0.0
 10
468.1268129737608
 20
-211.4731127349854
 30
0.0
 10
468.9502888156385
 20
-210.229785740657
 30
0.0
 10
469.7900819789587
 20
-209.0615319356328
 30
0.0
 10
470.6261461223025
 20
-207.9884982423526
 30
0.0
 10
471.4375089049207
 20
-207.0271937531666
 30
0.0
 10
472.2028412143164
 20
-206.1901946580156
 30
0.0
 10
472.9010008110338
 20
-205.4860562927873
 30
0.0
 10
473.5109337450809
 20
-204.9196488145533
 30
0.0
 10
474.0140891975539
 20
-204.4908719946183
 30
0.0
 10
474.3878974397667
 20
-204.1992045260392
 30
0.0
 10
474.6268724425378
 20
-204.031258123098
 30
0.0
 10
474.6517676505024
 20
-204.0159231656408
 30
0.0
 10
474.6640566651728
 20
-204.0083533748027
 30
0.0
  0
LWPOLYLINE
  5
E4
330
1F
100
AcDbEntity
  8
0
  6
Continuous
 62
     7
370
    25
100
AcDbPolyline
 90
       99
 70
   128
 43
0.0
 10
483.1866585108
 20
-90.6794310583
 10
483.2665639803
 20
-93.6029367232
 10
483.5059520402
 20
-96.6066859677
 10
483.9038389936
 20
-99.6783357417
 10
484.4585898376
 20
-102.8052639775
 10
485.1679249821
 20
-105.9746214563
 10
486.0289296167
 20
-109.1733846083
 10
487.0380656888
 20
-112.3884090296
 10
488.1911864417
 20
-115.6064834952
 10
489.483553455
 20
-118.8143842469
 10
490.9098561153
 20
-121.9989293325
 10
492.4642334392
 20
-125.147032773
 10
494.1402981567
 20
-128.2457583361
 10
495.9311629584
 20
-131.282372694
 10
497.8294687968
 20
-134.2443977467
 10
499.8274151259
 20
-137.119661898
 10
501.9167919557
 20
-139.8963500708
 10
504.0890135887
 20
-142.5630522578
 10
506.3351539002
 20
-145.1088104077
 10
508.6459830179
 20
-147.5231634541
 10
511.0120052492
 20
-149.7961903025
 10
513.4234981014
 20
-151.9185505981
 10
515.870552233
 20
-153.8815231072
 10
518.3431121737
 20
-155.6770415546
 10
520.8310176443
 20
-157.2977277699
 10
523.3240453077
 20
-158.7369220059
 10
525.8119507783
 20
-159.9887103046
 10
528.284510719
 20
-161.0479487995
 10
530.7315648506
 20
-161.9102848524
 10
533.1430577028
 20
-162.5721749395
 10
535.5090799342
 20
-163.0308992124
 10
537.8199090518
 20
-163.2845726747
 10
540.0660493633
 20
-163.3321529278
 10
542.2382709963
 20
-163.1734444541
 10
544.3276478261
 20
-162.8090994208
 10
546.3255941552
 20
-162.2406149999
 10
548.2238999936
 20
-161.4703272157
 10
550.0147647953
 20
-160.501401346
 10
551.6908295129
 20
-159.337818915
 10
553.2452068367
 20
-157.9843613325
 10
554.6715094971
 20
-156.446590246
 10
555.9638765103
 20
-154.7308246868
 10
557.1169972633
 20
-152.8441151036
 10
558.1261333353
 20
-150.7942143908
 10
558.98713797
 20
-148.58954603
 10
559.6964731144
 20
-146.2391694765
 10
560.2512239584
 20
-143.7527429318
 10
560.6491109118
 20
-141.1404836557
 10
560.8884989717
 20
-138.4131259821
 10
560.9684044413
 20
-135.5818772085
 10
560.8884989717
 20
-132.6583715436
 10
560.6491109118
 20
-129.6546222991
 10
560.2512239584
 20
-126.5829725251
 10
559.6964731144
 20
-123.4560442893
 10
558.98713797
 20
-120.2866868106
 10
558.1261333353
 20
-117.0879236586
 10
557.1169972633
 20
-113.8728992373
 10
555.9638765103
 20
-110.6548247716
 10
554.6715094971
 20
-107.4469240199
 10
553.2452068367
 20
-104.2623789344
 10
551.6908295129
 20
-101.1142754938
 10
550.0147647953
 20
-98.0155499307
 10
548.2238999936
 20
-94.9789355729
 10
546.3255941552
 20
-92.0169105201
 10
544.3276478261
 20
-89.1416463688
 10
542.2382709963
 20
-86.364958196
 10
540.0660493633
 20
-83.698256009
 10
537.8199090518
 20
-81.1524978592
 10
535.5090799342
 20
-78.7381448127
 10
533.1430577028
 20
-76.4651179643
 10
530.7315648506
 20
-74.3427576687
 10
528.284510719
 20
-72.3797851596
 10
525.8119507783
 20
-70.5842667122
 10
523.3240453077
 20
-68.9635804969
 10
520.8310176443
 20
-67.524386261
 10
518.3431121737
 20
-66.2725979622
 10
515.870552233
 20
-65.2133594673
 10
513.4234981014
 20
-64.3510234144
 10
511.0120052492
 20
-63.6891333273
 10
508.6459830179
 20
-63.2304090544
 10
506.3351539002
 20
-62.9767355921
 10
504.0890135887
 20
-62.9291553391
 10
501.9167919557
 20
-63.0878638127
 10
499.8274151259
 20
-63.452208846
 10
497.8294687968
 20
-64.0206932669
 10
495.9311629584
 20
-64.7909810511
 10
494.1402981567
 20
-65.7599069209
 10
492.4642334392
 20
-66.9234893519
 10
490.9098561153
 20
-68.2769469344
 10
489.483553455
 20
-69.8147180208
 10
488.1911864417
 20
-71.53048358
 10
487.0380656888
 20
-73.4171931632
 10
486.0289296167
 20
-75.4670938761
 10
485.1679249821
 20
-77.6717622368
 10
484.4585898376
 20
-80.0221387903
 10
483.9038389936
 20
-82.508565335
 10
483.5059520402
 20
-85.1208246111
 10
483.2665639803
 20
-87.8481822847
 10
483.1866585108
 20
-90.6794310583
  0
LWPOLYLINE
  5
E5
330
1F
100
AcDbEntity
  8
0
  6
Continuous
 62
     7
370
    25
100
AcDbPolyline
 90
       90
 70
   128
 43
0.0
 10
490.2577263226
 20
-94.7614716174
 10
490.336988657
 20
-92.2153215392
 10
490.574380779
 20
-89.7733705959
 10
490.9687200132
 20
-87.4477844642
 10
491.5180417813
 20
-85.2501490974
 10
492.2196093898
 20
-83.1914130042
 10
493.0699276643
 20
-81.2818327044
 10
494.0647603619
 20
-79.5309216308
 10
495.199151276
 20
-77.9474027345
 10
496.4674489283
 20
-76.5391650269
 10
497.8633347236
 20
-75.3132242774
 10
499.3798544291
 20
-74.2756880611
 10
501.0094528199
 20
-73.4317253314
 10
502.7440113189
 20
-72.785540668
 10
504.5748884428
 20
-72.3403533305
 10
506.4929628538
 20
-72.0983812198
 10
508.4886788018
 20
-72.0608298288
 10
510.5520937303
 20
-72.2278862366
 10
512.6729278098
 20
-72.5987181765
 10
514.8406151518
 20
-73.1714781826
 10
517.0443564469
 20
-73.9433127933
 10
519.2731727668
 20
-74.9103767673
 10
521.5159602607
 20
-76.0678522406
 10
523.7615454742
 20
-77.4099727287
 10
525.9987410146
 20
-78.9300518547
 10
528.2164012864
 20
-80.6205166609
 10
530.4034780175
 20
-82.4729453367
 10
532.5490753018
 20
-84.4781091755
 10
534.6425038815
 20
-86.6260185521
 10
536.6733344007
 20
-88.90597269
 10
538.6314493639
 20
-91.3066129722
 10
540.5070935409
 20
-93.8159795298
 10
542.2909225667
 20
-96.4215708246
 10
543.9740494949
 20
-99.110405932
 10
545.5480890717
 20
-101.8690892107
 10
547.0051995112
 20
-104.6838770394
 10
548.3381215625
 20
-107.5407462867
 10
549.5402146748
 20
-110.4254641737
 10
550.6054900809
 20
-113.3236591809
 10
551.5286406323
 20
-116.2208926468
 10
552.3050672392
 20
-119.1027306998
 10
552.9309017835
 20
-121.9548161678
 10
553.4030263888
 20
-124.7629401044
 10
553.7190889543
 20
-127.5131125774
 10
553.877514872
 20
-130.1916323659
 10
553.877514872
 20
-132.785155219
 10
553.7190889543
 20
-135.2807603364
 10
553.4030263888
 20
-137.6660147388
 10
552.9309017835
 20
-139.9290352089
 10
552.3050672392
 20
-142.0585474925
 10
551.5286406323
 20
-144.0439424664
 10
550.6054900809
 20
-145.8753289929
 10
549.5402146748
 20
-147.5435831963
 10
548.3381215625
 20
-149.0403939182
 10
547.0051995112
 20
-150.3583041228
 10
545.5480890717
 20
-151.4907480477
 10
543.9740494949
 20
-152.4320839143
 10
542.2909225667
 20
-153.1776220347
 10
540.5070935409
 20
-153.7236481754
 10
538.6314493639
 20
-154.0674420617
 10
536.6733344007
 20
-154.2072909297
 10
534.6425038815
 20
-154.1424980594
 10
532.5490753018
 20
-153.8733862457
 10
530.4034780175
 20
-153.4012961899
 10
528.2164012864
 20
-152.7285798212
 10
525.9987410146
 20
-151.8585885784
 10
523.7615454742
 20
-150.7956567144
 10
521.5159602607
 20
-149.5450797021
 10
519.2731727668
 20
-148.1130878533
 10
517.0443564469
 20
-146.5068152794
 10
514.8406151518
 20
-144.7342643495
 10
512.6729278098
 20
-142.8042658233
 10
510.5520937303
 20
-140.7264348562
 10
508.4886788018
 20
-138.5111230977
 10
506.4929628538
 20
-136.1693671195
 10
504.5748884428
 20
-133.712833432
 10
502.7440113189
 20
-131.1537603627
 10
501.0094528199
 20
-128.5048970846
 10
499.3798544291
 20
-125.7794401016
 10
497.8633347236
 20
-122.9909675031
 10
496.4674489283
 20
-120.1533713193
 10
495.199151276
 20
-117.2807883119
 10
494.0647603619
 20
-114.3875295447
 10
493.0699276643
 20
-111.4880090874
 10
492.2196093898
 20
-108.5966722051
 10
491.5180417813
 20
-105.7279233927
 10
490.9687200132
 20
-102.8960546125
 10
490.574380779
 20
-100.1151740923
 10
490.336988657
 20
-97.3991360389
 10
490.2577263226
 20
-94.7614716174
  0
LWPOLYLINE
  5
E6
330
1F
100
AcDbEntity
  8
0
  6
Continuous
 62
     7
370
    25
100
AcDbPolyline
 90
       99
 70
   128
 43
0.0
 10
369.3424667397
 20
-287.8633547736
 10
371.9141189954
 20
-286.4710284181
 10
374.6350147194
 20
-285.1766803215
 10
377.4939731676
 20
-283.985629238
 10
380.4792462665
 20
-282.9027694519
 10
383.5785668885
 20
-281.9325506662
 10
386.7791992605
 20
-281.0789597182
 10
390.0679912974
 20
-280.3455041961
 10
393.4314286475
 20
-279.735198026
 10
396.855690225
 20
-279.2505490869
 10
400.3267050048
 20
-278.8935489051
 10
403.8302098425
 20
-278.6656644711
 10
407.3518080853
 20
-278.5678322108
 10
410.8770287306
 20
-278.6004541379
 10
414.3913858907
 20
-278.7633962021
 10
417.880438318
 20
-279.0559888394
 10
421.3298487479
 20
-279.4770297238
 10
424.7254428129
 20
-280.0247887081
 10
428.0532672887
 20
-280.6970149332
 10
431.2996474307
 20
-281.4909460772
 10
434.4512431665
 20
-282.4033197068
 10
437.4951039133
 20
-283.430386683
 10
440.4187217944
 20
-284.5679265674
 10
443.2100830366
 20
-285.8112649646
 10
445.8577173381
 20
-287.1552927303
 10
448.3507450014
 20
-288.5944869663
 10
450.6789216413
 20
-290.1229337146
 10
452.8326802804
 20
-291.7343522598
 10
454.8031706625
 20
-293.4221209373
 10
456.5822956201
 20
-295.1793043438
 10
458.162744347
 20
-296.9986818355
 10
459.5380224403
 20
-298.8727772002
 10
460.7024785875
 20
-300.7938893781
 10
461.6513277885
 20
-302.7541241071
 10
462.3806710183
 20
-304.7454263622
 10
462.8875112491
 20
-306.7596134553
 10
463.1697657658
 20
-308.7884086597
 10
463.226274724
 20
-310.8234752206
 10
463.0568059162
 20
-312.8564506131
 10
462.6620557262
 20
-314.8789809051
 10
462.0436462671
 20
-316.8827550859
 10
461.2041187161
 20
-318.8595392176
 10
460.1469228719
 20
-320.8012102702
 10
458.8764029791
 20
-322.6997895007
 10
457.3977798764
 20
-324.54747524
 10
455.7171295433
 20
-326.3366749509
 10
453.8413581324
 20
-328.0600364281
 10
451.778173591
 20
-329.7104780096
 10
449.5360539868
 20
-331.2812176769
 10
447.1242126702
 20
-332.7658009239
 10
444.5525604146
 20
-334.1581272794
 10
441.8316646906
 20
-335.452475376
 10
438.9727062424
 20
-336.6435264595
 10
435.9874331435
 20
-337.7263862456
 10
432.8881125215
 20
-338.6966050313
 10
429.6874801495
 20
-339.5501959793
 10
426.3986881125
 20
-340.2836515014
 10
423.0352507625
 20
-340.8939576715
 10
419.6109891849
 20
-341.3786066106
 10
416.1399744052
 20
-341.7356067924
 10
412.6364695674
 20
-341.9634912264
 10
409.1148713246
 20
-342.0613234867
 10
405.5896506793
 20
-342.0287015596
 10
402.0752935193
 20
-341.8657594954
 10
398.5862410919
 20
-341.5731668581
 10
395.1368306621
 20
-341.1521259737
 10
391.7412365971
 20
-340.6043669894
 10
388.4134121213
 20
-339.9321407643
 10
385.1670319793
 20
-339.1382096203
 10
382.0154362434
 20
-338.2258359907
 10
378.9715754966
 20
-337.1987690144
 10
376.0479576156
 20
-336.06122913
 10
373.2565963733
 20
-334.8178907329
 10
370.6089620719
 20
-333.4738629672
 10
368.1159344085
 20
-332.0346687312
 10
365.7877577687
 20
-330.5062219829
 10
363.6339991296
 20
-328.8948034377
 10
361.6635087474
 20
-327.2070347602
 10
359.8843837899
 20
-325.4498513537
 10
358.303935063
 20
-323.630473862
 10
356.9286569696
 20
-321.7563784972
 10
355.7642008224
 20
-319.8352663194
 10
354.8153516215
 20
-317.8750315904
 10
354.0860083917
 20
-315.8837293353
 10
353.5791681609
 20
-313.8695422422
 10
353.2969136442
 20
-311.8407470378
 10
353.240404686
 20
-309.8056804769
 10
353.4098734937
 20
-307.7727050844
 10
353.8046236838
 20
-305.7501747924
 10
354.4230331428
 20
-303.7464006116
 10
355.2625606939
 20
-301.7696164799
 10
356.319756538
 20
-299.8279454273
 10
357.5902764309
 20
-297.9293661968
 10
359.0688995336
 20
-296.0816804575
 10
360.7495498667
 20
-294.2924807466
 10
362.6253212775
 20
-292.5691192694
 10
364.6885058189
 20
-290.9186776879
 10
366.9306254231
 20
-289.3479380206
 10
369.3424667397
 20
-287.8633547736
  0
LWPOLYLINE
  5
E7
330
1F
100
AcDbEntity
  8
0
  6
Continuous
 62
     7
370
    25
100
AcDbPolyline
 90
       90
 70
   128
 43
0.0
 10
376.4135345516
 20
-291.9453953327
 10
374.2482609535
 20
-293.2868955175
 10
372.2522993082
 20
-294.7132267592
 10
370.4355933963
 20
-296.2172831472
 10
368.8071939552
 20
-297.7915715482
 10
367.3752135891
 20
-299.4282489368
 10
366.146786352
 20
-301.1191614684
 10
365.1280322067
 20
-302.8558851018
 10
364.3240265351
 20
-304.6297675674
 10
363.738774853
 20
-306.4319714718
 10
363.3751928549
 20
-308.2535183258
 10
363.2350918879
 20
-310.0853332748
 10
363.3191699281
 20
-311.9182903087
 10
363.6270081029
 20
-313.7432577277
 10
364.1570727779
 20
-315.5511436361
 10
364.9067231977
 20
-317.3329412371
 10
365.8722246415
 20
-319.0797737048
 10
367.0487670297
 20
-320.7829384076
 10
368.4304888873
 20
-322.4339502647
 10
370.0105065456
 20
-324.024584018
 10
371.780948436
 20
-325.5469152103
 10
373.7329943061
 20
-326.993359664
 10
375.8569191616
 20
-328.3567112657
 10
378.1421417156
 20
-329.6301778662
 10
380.5772771043
 20
-330.807415119
 10
383.1501936058
 20
-331.8825580874
 10
385.8480730795
 20
-332.8502504632
 10
388.6574748255
 20
-333.7056712515
 10
391.5644025456
 20
-334.4445587892
 10
394.5543740721
 20
-335.0632319755
 10
397.6124935174
 20
-335.5586086119
 10
400.7235254841
 20
-335.9282207569
 10
403.8719709675
 20
-336.1702270213
 10
407.0421445706
 20
-336.2834217421
 10
410.2182526479
 20
-336.2672409888
 10
413.3844719888
 20
-336.1217653733
 10
416.5250286478
 20
-335.8477196477
 10
419.6242765295
 20
-335.446469094
 10
422.6667753369
 20
-334.9200127223
 10
425.6373674941
 20
-334.2709733117
 10
428.5212536603
 20
-333.502584344
 10
431.3040664596
 20
-332.6186738943
 10
433.9719420588
 20
-331.62364556
 10
436.5115892357
 20
-330.5224565223
 10
438.9103555959
 20
-329.3205928495
 10
441.156290606
 20
-328.024042166
 10
443.2382051308
 20
-326.6392638221
 10
445.1457271769
 20
-325.1731567138
 10
446.8693535653
 20
-323.6330249131
 10
448.4004972761
 20
-322.026541279
 10
449.7315302284
 20
-320.3617092322
 10
450.8558212829
 20
-318.6468228823
 10
451.7677692781
 20
-316.8904257067
 10
452.4628309351
 20
-315.1012679878
 10
452.9375434916
 20
-313.2882632195
 10
453.1895419535
 20
-311.4604437003
 10
453.2175708772
 20
-309.626915535
 10
453.0214906239
 20
-307.7968132687
 10
452.6022780557
 20
-305.979254379
 10
451.9620216684
 20
-304.1832938527
 10
451.1039111872
 20
-302.4178790748
 10
450.0322216754
 20
-300.6918052531
 10
448.7522922361
 20
-299.0136716003
 10
447.2704994135
 20
-297.3918384941
 10
445.5942254248
 20
-295.8343858253
 10
443.7318213828
 20
-294.3490727447
 10
441.6925656907
 20
-292.9432990075
 10
439.4866178178
 20
-291.6240681077
 10
437.1249676854
 20
-290.3979523873
 10
434.6193809157
 20
-289.271060293
 10
431.982340216
 20
-288.2490059447
 10
429.2269831903
 20
-287.3368811657
 10
426.3670368888
 20
-286.5392301158
 10
423.41674942
 20
-285.8600266523
 10
420.3908189679
 20
-285.3026545328
 10
417.3043205655
 20
-284.8698905571
 10
414.1726309928
 20
-284.5638907336
 10
411.0113521697
 20
-284.386179538
 10
407.8362334282
 20
-284.3376423186
 10
404.6630930502
 20
-284.4185208853
 10
401.5077394615
 20
-284.6284123051
 10
398.3858924748
 20
-284.9662709097
 10
395.313104975
 20
-285.4304135043
 10
392.3046854346
 20
-286.018527754
 10
389.3756216486
 20
-286.7276837032
 10
386.5405060653
 20
-287.5543483725
 10
383.8134630881
 20
-288.4944033602
 10
381.2080787078
 20
-289.5431653596
 10
378.7373328184
 20
-290.6954094912
 10
376.4135345516
 20
-291.9453953327
  0
LWPOLYLINE
  5
E8
330
1F
100
AcDbEntity
  8
0
  6
Continuous
 62
     1
370
    25
100
AcDbPolyline
 90
       14
 70
   128
 43
0.0
 10
447.1242126702
 20
-201.3100287137
 10
449.6159594564
 20
-202.656211628
 10
452.0974671205
 20
-203.8123190141
 10
454.5585386153
 20
-204.7736001787
 10
456.9890608701
 20
-205.5361050113
 10
459.3790463477
 20
-206.0967002161
 10
461.7186740851
 20
-206.453082187
 10
463.99833005
 20
-206.6037864741
 10
466.2086466471
 20
-206.5481938011
 10
468.3405412113
 20
-206.2865326104
 10
470.3852533308
 20
-205.8198781238
 10
472.3343808446
 20
-205.1501479247
 10
474.1799143699
 20
-204.2800940781
 10
474.6219778177
 20
-204.032971491
  0
LWPOLYLINE
  5
E9
330
1F
100
AcDbEntity
  8
0
  6
Continuous
 62
     1
370
    25
100
AcDbPolyline
 90
       38
 70
   128
 43
0.0
 10
419.6264475228
 20
-108.7675966291
 10
418.334155127
 20
-109.587276298
 10
416.7181038053
 20
-110.8464432443
 10
415.2269977071
 20
-112.2928006938
 10
413.866964107
 20
-113.9204052535
 10
412.643591675
 20
-115.7225687471
 10
411.5619075107
 20
-117.6918856983
 10
410.6263564864
 20
-119.8202637612
 10
409.8407829819
 20
-122.098956974
 10
409.2084150873
 20
-124.5186016974
 10
408.7318513379
 20
-127.0692550922
 10
408.4130500363
 20
-129.7404359765
 10
408.2533212055
 20
-132.5211678951
 10
408.2533212055
 20
-135.4000242241
 10
408.4130500363
 20
-138.3651751253
 10
408.7318513379
 20
-141.4044361576
 10
409.2084150873
 20
-144.5053183455
 10
409.8407829819
 20
-147.6550794991
 10
410.6263564864
 20
-150.840776574
 10
411.5619075107
 20
-154.0493188577
 10
412.643591675
 20
-157.2675217617
 10
413.866964107
 20
-160.4821609999
 10
415.2269977071
 20
-163.6800269303
 10
416.7181038053
 20
-166.8479788356
 10
418.334155127
 20
-169.9729989222
 10
420.0685109706
 20
-173.042245812
 10
421.9140444959
 20
-176.0431073113
 10
423.8631720097
 20
-178.9632522365
 10
425.9078841291
 20
-181.7906810857
 10
428.0397786934
 20
-184.5137753473
 10
430.2500952905
 20
-187.1213452429
 10
432.5297512554
 20
-189.6026757084
 10
434.8693789928
 20
-191.9475704248
 10
437.2593644704
 20
-194.1463937166
 10
439.6898867252
 20
-196.1901101473
 10
442.15095822
 20
-198.0703216477
 10
444.6324658841
 20
-199.7793020255
 10
447.1242126702
 20
-201.3100287137
  0
LWPOLYLINE
  5
EA
330
1F
100
AcDbEntity
  8
0
  6
Continuous
 62
     1
370
    25
100
AcDbPolyline
 90
       14
 70
   128
 43
0.0
 10
447.1242126702
 20
-201.3100287137
 10
449.5360539868
 20
-202.7946119607
 10
451.778173591
 20
-204.365351628
 10
453.8413581324
 20
-206.0157932095
 10
455.7171295433
 20
-207.7391546867
 10
457.3977798764
 20
-209.5283543976
 10
458.8764029791
 20
-211.3760401369
 10
460.1469228719
 20
-213.2746193674
 10
461.2041187161
 20
-215.21629042
 10
462.0436462671
 20
-217.1930745517
 10
462.6620557262
 20
-219.1968487325
 10
463.0568059162
 20
-221.2193790245
 10
463.226274724
 20
-223.252354417
 10
463.233339705
 20
-223.7612517889
  0
LWPOLYLINE
  5
EB
330
1F
100
AcDbEntity
  8
0
  6
Continuous
 62
     1
370
    25
100
AcDbPolyline
 90
       38
 70
   128
 43
0.0
 10
353.233339705
 20
-223.7612517889
 10
353.2969136442
 20
-222.2350825998
 10
353.5791681609
 20
-220.2062873954
 10
354.0860083917
 20
-218.1921003023
 10
354.8153516215
 20
-216.2007980472
 10
355.7642008224
 20
-214.2405633182
 10
356.9286569696
 20
-212.3194511404
 10
358.303935063
 20
-210.4453557756
 10
359.8843837899
 20
-208.6259782839
 10
361.6635087474
 20
-206.8687948774
 10
363.6339991296
 20
-205.1810261999
 10
365.7877577687
 20
-203.5696076547
 10
368.1159344085
 20
-202.0411609064
 10
370.6089620719
 20
-200.6019666705
 10
373.2565963733
 20
-199.2579389047
 10
376.0479576156
 20
-198.0146005076
 10
378.9715754966
 20
-196.8770606232
 10
382.0154362434
 20
-195.8499936469
 10
385.1670319793
 20
-194.9376200173
 10
388.4134121213
 20
-194.1436888733
 10
391.7412365971
 20
-193.4714626482
 10
395.1368306621
 20
-192.9237036639
 10
398.5862410919
 20
-192.5026627795
 10
402.0752935193
 20
-192.2100701422
 10
405.5896506793
 20
-192.0471280781
 10
409.1148713246
 20
-192.0145061509
 10
412.6364695674
 20
-192.1123384112
 10
416.1399744052
 20
-192.3402228452
 10
419.6109891849
 20
-192.697223027
 10
423.0352507625
 20
-193.1818719661
 10
426.3986881125
 20
-193.7921781362
 10
429.6874801495
 20
-194.5256336583
 10
432.8881125215
 20
-195.3792246063
 10
435.9874331435
 20
-196.349443392
 10
438.9727062424
 20
-197.4323031781
 10
441.8316646906
 20
-198.6233542616
 10
444.5525604146
 20
-199.9177023582
 10
447.1242126702
 20
-201.3100287137
  0
ENDSEC
  0
SECTION
  2
OBJECTS
  0
DICTIONARY
  5
C
330
0
100
AcDbDictionary
281
     1
  3
ACAD_GROUP
350
D
  3
ACAD_LAYOUT
350
1A
  3
ACAD_MLINESTYLE
350
17
  3
ACAD_PLOTSETTINGS
350
19
  3
ACAD_PLOTSTYLENAME
350
E
  3
ACAD_SCALELIST
350
47
  3
DWGPROPS
350
EC
  0
DICTIONARY
  5
D
102
{ACAD_REACTORS
330
C
102
}
330
C
100
AcDbDictionary
281
     1
  0
DICTIONARY
  5
1A
102
{ACAD_REACTORS
330
C
102
}
330
C
100
AcDbDictionary
281
     1
  3
Layout1
350
1E
  3
Layout2
350
26
  3
Model
350
22
  0
DICTIONARY
  5
17
102
{ACAD_REACTORS
330
C
102
}
330
C
100
AcDbDictionary
281
     1
  3
Standard
350
18
  0
DICTIONARY
  5
19
102
{ACAD_REACTORS
330
C
102
}
330
C
100
AcDbDictionary
281
     1
  0
ACDBDICTIONARYWDFLT
  5
E
102
{ACAD_REACTORS
330
C
102
}
330
C
100
AcDbDictionary
281
     1
  3
Normal
350
F
100
AcDbDictionaryWithDefault
340
F
  0
DICTIONARY
  5
47
102
{ACAD_REACTORS
330
C
102
}
330
C
100
AcDbDictionary
281
     1
  3
A0
350
48
  3
A1
350
49
  3
A2
350
4A
  3
A3
350
4B
  3
A4
350
4C
  3
A5
350
4D
  3
A6
350
4E
  3
A7
350
4F
  3
A8
350
50
  3
A9
350
51
  3
B0
350
52
  3
B1
350
53
  3
B2
350
54
  3
B3
350
55
  3
B4
350
56
  3
B5
350
57
  3
B6
350
58
  3
B7
350
59
  3
B8
350
5A
  3
B9
350
5B
  3
C0
350
5C
  3
C1
350
5D
  3
C2
350
5E
  3
C3
350
5F
  3
C4
350
60
  3
C5
350
61
  3
C6
350
62
  3
C7
350
63
  3
C8
350
64
  3
C9
350
65
  3
D0
350
66
  3
D1
350
67
  3
D2
350
68
  0
XRECORD
  5
EC
102
{ACAD_REACTORS
330
C
102
}
330
C
100
AcDbXrecord
280
     1
  1
DWGPROPS COOKIE
  2

  3

  4

  6

  7

  8
b.kav
  9

300
=
301
=
302
=
303
=
304
=
305
=
306
=
307
=
308
=
309
=
 40
0.0
 41
2459935.574349039
 42
2459935.574349225
  1

 90
        0
  0
LAYOUT
  5
1E
102
{ACAD_REACTORS
330
1A
102
}
330
1A
100
AcDbPlotSettings
  1

  2
none_device
  4

  6

 40
0.0
 41
0.0
 42
0.0
 43
0.0
 44
0.0
 45
0.0
 46
0.0
 47
0.0
 48
0.0
 49
0.0
140
0.0
141
0.0
142
1.0
143
1.0
 70
   688
 72
     1
 73
     0
 74
     5
  7

 75
    16
147
1.0
148
0.0
149
0.0
100
AcDbLayout
  1
Layout1
 70
     1
 71
     1
 10
0.0
 20
0.0
 11
420.0
 21
297.0
 12
0.0
 22
0.0
 32
0.0
 14
1.0000000000E+20
 24
1.0000000000E+20
 34
1.0000000000E+20
 15
-1.0000000000E+20
 25
-1.0000000000E+20
 35
-1.0000000000E+20
146
0.0
 13
0.0
 23
0.0
 33
0.0
 16
1.0
 26
0.0
 36
0.0
 17
0.0
 27
1.0
 37
0.0
 76
     0
330
1B
  0
LAYOUT
  5
26
102
{ACAD_REACTORS
330
1A
102
}
330
1A
100
AcDbPlotSettings
  1

  2
none_device
  4

  6

 40
0.0
 41
0.0
 42
0.0
 43
0.0
 44
0.0
 45
0.0
 46
0.0
 47
0.0
 48
0.0
 49
0.0
140
0.0
141
0.0
142
1.0
143
1.0
 70
   688
 72
     1
 73
     0
 74
     5
  7

 75
    16
147
1.0
148
0.0
149
0.0
100
AcDbLayout
  1
Layout2
 70
     1
 71
     2
 10
0.0
 20
0.0
 11
0.0
 21
0.0
 12
0.0
 22
0.0
 32
0.0
 14
0.0
 24
0.0
 34
0.0
 15
0.0
 25
0.0
 35
0.0
146
0.0
 13
0.0
 23
0.0
 33
0.0
 16
1.0
 26
0.0
 36
0.0
 17
0.0
 27
1.0
 37
0.0
 76
     0
330
23
  0
LAYOUT
  5
22
102
{ACAD_REACTORS
330
1A
102
}
330
1A
100
AcDbPlotSettings
  1

  2
none_device
  4
Letter_(8.50_x_11.00_Inches)
  6

 40
6.35
 41
6.35
 42
6.35000508
 43
6.35000508
 44
215.9
 45
279.4
 46
0.0
 47
0.0
 48
0.0
 49
0.0
140
0.0
141
0.0
142
1.0
143
1.0
 70
  1712
 72
     1
 73
     0
 74
     0
  7

 75
     0
147
1.0
148
0.0
149
0.0
100
AcDbLayout
  1
Model
 70
     1
 71
     0
 10
0.0
 20
0.0
 11
279.4
 21
215.9
 12
0.0
 22
0.0
 32
0.0
 14
0.0
 24
0.0
 34
0.0
 15
279.4
 25
215.9
 35
0.0
146
0.0
 13
0.0
 23
0.0
 33
0.0
 16
1.0
 26
0.0
 36
0.0
 17
0.0
 27
1.0
 37
0.0
 76
     0
330
1F
331
29
  0
MLINESTYLE
  5
18
102
{ACAD_REACTORS
330
17
102
}
330
17
100
AcDbMlineStyle
  2
Standard
 70
     0
  3

 62
   256
 51
90.0
 52
90.0
 71
     2
 49
0.5
 62
   256
  6
BYLAYER
 49
-0.5
 62
   256
  6
BYLAYER
  0
ACDBPLACEHOLDER
  5
F
102
{ACAD_REACTORS
330
E
102
}
330
E
  0
SCALE
  5
48
102
{ACAD_REACTORS
330
47
102
}
330
47
100
AcDbScale
 70
     0
300
1:1
140
1.0
141
1.0
290
     1
  0
SCALE
  5
49
102
{ACAD_REACTORS
330
47
102
}
330
47
100
AcDbScale
 70
     0
300
1:2
140
1.0
141
2.0
290
     0
  0
SCALE
  5
4A
102
{ACAD_REACTORS
330
47
102
}
330
47
100
AcDbScale
 70
     0
300
1:4
140
1.0
141
4.0
290
     0
  0
SCALE
  5
4B
102
{ACAD_REACTORS
330
47
102
}
330
47
100
AcDbScale
 70
     0
300
1:5
140
1.0
141
5.0
290
     0
  0
SCALE
  5
4C
102
{ACAD_REACTORS
330
47
102
}
330
47
100
AcDbScale
 70
     0
300
1:8
140
1.0
141
8.0
290
     0
  0
SCALE
  5
4D
102
{ACAD_REACTORS
330
47
102
}
330
47
100
AcDbScale
 70
     0
300
1:10
140
1.0
141
10.0
290
     0
  0
SCALE
  5
4E
102
{ACAD_REACTORS
330
47
102
}
330
47
100
AcDbScale
 70
     0
300
1:16
140
1.0
141
16.0
290
     0
  0
SCALE
  5
4F
102
{ACAD_REACTORS
330
47
102
}
330
47
100
AcDbScale
 70
     0
300
1:20
140
1.0
141
20.0
290
     0
  0
SCALE
  5
50
102
{ACAD_REACTORS
330
47
102
}
330
47
100
AcDbScale
 70
     0
300
1:30
140
1.0
141
30.0
290
     0
  0
SCALE
  5
51
102
{ACAD_REACTORS
330
47
102
}
330
47
100
AcDbScale
 70
     0
300
1:40
140
1.0
141
40.0
290
     0
  0
SCALE
  5
52
102
{ACAD_REACTORS
330
47
102
}
330
47
100
AcDbScale
 70
     0
300
1:50
140
1.0
141
50.0
290
     0
  0
SCALE
  5
53
102
{ACAD_REACTORS
330
47
102
}
330
47
100
AcDbScale
 70
     0
300
1:100
140
1.0
141
100.0
290
     0
  0
SCALE
  5
54
102
{ACAD_REACTORS
330
47
102
}
330
47
100
AcDbScale
 70
     0
300
2:1
140
2.0
141
1.0
290
     0
  0
SCALE
  5
55
102
{ACAD_REACTORS
330
47
102
}
330
47
100
AcDbScale
 70
     0
300
4:1
140
4.0
141
1.0
290
     0
  0
SCALE
  5
56
102
{ACAD_REACTORS
330
47
102
}
330
47
100
AcDbScale
 70
     0
300
8:1
140
8.0
141
1.0
290
     0
  0
SCALE
  5
57
102
{ACAD_REACTORS
330
47
102
}
330
47
100
AcDbScale
 70
     0
300
10:1
140
10.0
141
1.0
290
     0
  0
SCALE
  5
58
102
{ACAD_REACTORS
330
47
102
}
330
47
100
AcDbScale
 70
     0
300
100:1
140
100.0
141
1.0
290
     0
  0
SCALE
  5
59
102
{ACAD_REACTORS
330
47
102
}
330
47
100
AcDbScale
 70
     0
300
1/128" = 1'-0"
140
0.0078125
141
12.0
290
     0
  0
SCALE
  5
5A
102
{ACAD_REACTORS
330
47
102
}
330
47
100
AcDbScale
 70
     0
300
1/64" = 1'-0"
140
0.015625
141
12.0
290
     0
  0
SCALE
  5
5B
102
{ACAD_REACTORS
330
47
102
}
330
47
100
AcDbScale
 70
     0
300
1/32" = 1'-0"
140
0.03125
141
12.0
290
     0
  0
SCALE
  5
5C
102
{ACAD_REACTORS
330
47
102
}
330
47
100
AcDbScale
 70
     0
300
1/16" = 1'-0"
140
0.0625
141
12.0
290
     0
  0
SCALE
  5
5D
102
{ACAD_REACTORS
330
47
102
}
330
47
100
AcDbScale
 70
     0
300
3/32" = 1'-0"
140
0.09375
141
12.0
290
     0
  0
SCALE
  5
5E
102
{ACAD_REACTORS
330
47
102
}
330
47
100
AcDbScale
 70
     0
300
1/8" = 1'-0"
140
0.125
141
12.0
290
     0
  0
SCALE
  5
5F
102
{ACAD_REACTORS
330
47
102
}
330
47
100
AcDbScale
 70
     0
300
3/16" = 1'-0"
140
0.1875
141
12.0
290
     0
  0
SCALE
  5
60
102
{ACAD_REACTORS
330
47
102
}
330
47
100
AcDbScale
 70
     0
300
1/4" = 1'-0"
140
0.25
141
12.0
290
     0
  0
SCALE
  5
61
102
{ACAD_REACTORS
330
47
102
}
330
47
100
AcDbScale
 70
     0
300
3/8" = 1'-0"
140
0.375
141
12.0
290
     0
  0
SCALE
  5
62
102
{ACAD_REACTORS
330
47
102
}
330
47
100
AcDbScale
 70
     0
300
1/2" = 1'-0"
140
0.5
141
12.0
290
     0
  0
SCALE
  5
63
102
{ACAD_REACTORS
330
47
102
}
330
47
100
AcDbScale
 70
     0
300
3/4" = 1'-0"
140
0.75
141
12.0
290
     0
  0
SCALE
  5
64
102
{ACAD_REACTORS
330
47
102
}
330
47
100
AcDbScale
 70
     0
300
1" = 1'-0"
140
1.0
141
12.0
290
     0
  0
SCALE
  5
65
102
{ACAD_REACTORS
330
47
102
}
330
47
100
AcDbScale
 70
     0
300
1-1/2" = 1'-0"
140
1.5
141
12.0
290
     0
  0
SCALE
  5
66
102
{ACAD_REACTORS
330
47
102
}
330
47
100
AcDbScale
 70
     0
300
3" = 1'-0"
140
3.0
141
12.0
290
     0
  0
SCALE
  5
67
102
{ACAD_REACTORS
330
47
102
}
330
47
100
AcDbScale
 70
     0
300
6" = 1'-0"
140
6.0
141
12.0
290
     0
  0
SCALE
  5
68
102
{ACAD_REACTORS
330
47
102
}
330
47
100
AcDbScale
 70
     0
300
1'-0" = 1'-0"
140
12.0
141
12.0
290
     0
  0
ENDSEC
  0
EOF
